ISO-10303-21;
HEADER;
FILE_DESCRIPTION (( 'STEP AP203' ),
    '1' );
FILE_NAME ('QB-CTZHWP-10-894-M.STEP',
    '2020-12-24T01:34:34',
    ( '' ),
    ( '' ),
    'SwSTEP 2.0',
    'SolidWorks 2020',
    '' );
FILE_SCHEMA (( 'CONFIG_CONTROL_DESIGN' ));
ENDSEC;

DATA;
#1 = LOCAL_TIME ( 9, 34, 34.00000000000000000, #259 ) ;
#2 =( NAMED_UNIT ( * ) PLANE_ANGLE_UNIT ( ) SI_UNIT ( $, .RADIAN. ) );
#3 = PERSON_AND_ORGANIZATION ( #139, #116 ) ;
#4 = CARTESIAN_POINT ( 'NONE',  ( -3.000000000000000000, 0.000000000000000000, 5.000000000000000000 ) ) ;
#5 = DIRECTION ( 'NONE',  ( -1.000000000000000000, -0.000000000000000000, -0.000000000000000000 ) ) ;
#6 = AXIS2_PLACEMENT_3D ( 'NONE', #193, #294, #138 ) ;
#7 = MANIFOLD_SOLID_BREP ( 'Ðý×', #152 ) ;
#8 = DIRECTION ( 'NONE',  ( 1.000000000000000000, 0.000000000000000000, 0.000000000000000000 ) ) ;
#9 = ORIENTED_EDGE ( 'NONE', *, *, #306, .T. ) ;
#10 = VERTEX_POINT ( 'NONE', #169 ) ;
#11 = APPROVAL_PERSON_ORGANIZATION ( #181, #275, #49 ) ;
#12 = EDGE_LOOP ( 'NONE', ( #299, #211, #114, #107 ) ) ;
#13 = CARTESIAN_POINT ( 'NONE',  ( -1.614212418857619014, 0.000000000000000000, 5.000000000000000888 ) ) ;
#14 = EDGE_LOOP ( 'NONE', ( #318, #330, #84, #187 ) ) ;
#15 = PLANE ( 'NONE',  #281 ) ;
#16 = AXIS2_PLACEMENT_3D ( 'NONE', #252, #96, #201 ) ;
#17 = AXIS2_PLACEMENT_3D ( 'NONE', #102, #76, #79 ) ;
#18 = LINE ( 'NONE', #149, #124 ) ;
#19 = DIRECTION ( 'NONE',  ( 0.000000000000000000, 0.000000000000000000, 1.000000000000000000 ) ) ;
#20 = PLANE ( 'NONE',  #255 ) ;
#21 = FACE_OUTER_BOUND ( 'NONE', #320, .T. ) ;
#22 = LOCAL_TIME ( 9, 34, 34.00000000000000000, #53 ) ;
#23 = APPROVAL_ROLE ( '' ) ;
#24 = PERSON_AND_ORGANIZATION ( #139, #116 ) ;
#25 = CARTESIAN_POINT ( 'NONE',  ( 3.000000000000000000, 0.000000000000000000, 12.69999999999999929 ) ) ;
#26 = CALENDAR_DATE ( 2020, 24, 12 ) ;
#27 = AXIS2_PLACEMENT_3D ( 'NONE', #145, #226, #200 ) ;
#28 = APPROVAL_STATUS ( 'not_yet_approved' ) ;
#29 = VECTOR ( 'NONE', #175, 1000.000000000000000 ) ;
#30 = CARTESIAN_POINT ( 'NONE',  ( 0.000000000000000000, 0.000000000000000000, 0.000000000000000000 ) ) ;
#31 = EDGE_LOOP ( 'NONE', ( #247, #41 ) ) ;
#32 = DIRECTION ( 'NONE',  ( 0.000000000000000000, 0.000000000000000000, 1.000000000000000000 ) ) ;
#33 = ORIENTED_EDGE ( 'NONE', *, *, #137, .T. ) ;
#34 = ORIENTED_EDGE ( 'NONE', *, *, #298, .F. ) ;
#35 = CARTESIAN_POINT ( 'NONE',  ( -3.000000000000000000, 0.000000000000000000, 0.000000000000000000 ) ) ;
#36 = VECTOR ( 'NONE', #222, 1000.000000000000000 ) ;
#37 = CIRCLE ( 'NONE', #246, 5.000000000000001776 ) ;
#38 = ORIENTED_EDGE ( 'NONE', *, *, #113, .T. ) ;
#39 = VERTEX_POINT ( 'NONE', #269 ) ;
#40 = MECHANICAL_CONTEXT ( 'NONE', #94, 'mechanical' ) ;
#41 = ORIENTED_EDGE ( 'NONE', *, *, #283, .F. ) ;
#42 = CYLINDRICAL_SURFACE ( 'NONE', #27, 5.000000000000000888 ) ;
#43 = AXIS2_PLACEMENT_3D ( 'NONE', #315, #212, #258 ) ;
#44 = CARTESIAN_POINT ( 'NONE',  ( 3.000000000000000000, 0.000000000000000000, 5.000000000000001776 ) ) ;
#45 = CARTESIAN_POINT ( 'NONE',  ( 3.000000000000000000, 6.123233995736768255E-16, -5.000000000000001776 ) ) ;
#46 = LINE ( 'NONE', #151, #172 ) ;
#47 = CC_DESIGN_PERSON_AND_ORGANIZATION_ASSIGNMENT ( #326, #59, ( #109 ) ) ;
#48 = DATE_AND_TIME ( #77, #1 ) ;
#49 = APPROVAL_ROLE ( '' ) ;
#50 = DIRECTION ( 'NONE',  ( 1.000000000000000000, 0.000000000000000000, 0.000000000000000000 ) ) ;
#51 = COORDINATED_UNIVERSAL_TIME_OFFSET ( 8, 0, .AHEAD. ) ;
#52 = FACE_OUTER_BOUND ( 'NONE', #14, .T. ) ;
#53 = COORDINATED_UNIVERSAL_TIME_OFFSET ( 8, 0, .AHEAD. ) ;
#54 = DIRECTION ( 'NONE',  ( -1.000000000000000000, -0.000000000000000000, -0.000000000000000000 ) ) ;
#55 = DIRECTION ( 'NONE',  ( 0.000000000000000000, 0.000000000000000000, 1.000000000000000000 ) ) ;
#56 = CARTESIAN_POINT ( 'NONE',  ( 3.000000000000000000, 0.000000000000000000, 0.000000000000000000 ) ) ;
#57 = AXIS2_PLACEMENT_3D ( 'NONE', #197, #217, #135 ) ;
#58 = LOCAL_TIME ( 9, 34, 34.00000000000000000, #288 ) ;
#59 = PERSON_AND_ORGANIZATION_ROLE ( 'design_owner' ) ;
#60 = ORIENTED_EDGE ( 'NONE', *, *, #206, .F. ) ;
#61 = DIRECTION ( 'NONE',  ( -1.000000000000000000, -0.000000000000000000, -0.000000000000000000 ) ) ;
#62 = ORIENTED_EDGE ( 'NONE', *, *, #80, .F. ) ;
#63 = ORIENTED_EDGE ( 'NONE', *, *, #335, .T. ) ;
#64 = AXIS2_PLACEMENT_3D ( 'NONE', #30, #134, #8 ) ;
#65 = DIRECTION ( 'NONE',  ( -1.000000000000000000, -0.000000000000000000, -0.000000000000000000 ) ) ;
#66 = CARTESIAN_POINT ( 'NONE',  ( 3.000000000000000000, 0.000000000000000000, 0.000000000000000000 ) ) ;
#67 = EDGE_CURVE ( 'NONE', #241, #199, #289, .T. ) ;
#68 = CARTESIAN_POINT ( 'NONE',  ( -3.000000000000000000, 0.000000000000000000, 0.000000000000000000 ) ) ;
#69 = CARTESIAN_POINT ( 'NONE',  ( -1.250000000000000222, 0.000000000000000000, 0.000000000000000000 ) ) ;
#70 = EDGE_CURVE ( 'NONE', #291, #293, #305, .T. ) ;
#71 = FACE_BOUND ( 'NONE', #245, .T. ) ;
#72 = APPROVAL_DATE_TIME ( #282, #327 ) ;
#73 = PERSON_AND_ORGANIZATION_ROLE ( 'design_supplier' ) ;
#74 = CYLINDRICAL_SURFACE ( 'NONE', #43, 5.000000000000000888 ) ;
#75 = PERSON_AND_ORGANIZATION_ROLE ( 'classification_officer' ) ;
#76 = DIRECTION ( 'NONE',  ( -1.000000000000000000, -0.000000000000000000, -0.000000000000000000 ) ) ;
#77 = CALENDAR_DATE ( 2020, 24, 12 ) ;
#78 = VECTOR ( 'NONE', #290, 1000.000000000000000 ) ;
#79 = DIRECTION ( 'NONE',  ( 0.000000000000000000, 0.000000000000000000, 1.000000000000000000 ) ) ;
#80 = EDGE_CURVE ( 'NONE', #189, #291, #248, .T. ) ;
#81 = ORIENTED_EDGE ( 'NONE', *, *, #159, .F. ) ;
#82 = DIRECTION ( 'NONE',  ( -1.000000000000000000, -0.000000000000000000, -0.000000000000000000 ) ) ;
#83 = PRODUCT_DEFINITION_SHAPE ( 'NONE', 'NONE',  #155 ) ;
#84 = ORIENTED_EDGE ( 'NONE', *, *, #137, .F. ) ;
#85 = DIRECTION ( 'NONE',  ( -1.000000000000000000, -0.000000000000000000, -0.000000000000000000 ) ) ;
#86 = VERTEX_POINT ( 'NONE', #171 ) ;
#87 = EDGE_LOOP ( 'NONE', ( #271, #215, #266, #249 ) ) ;
#88 = AXIS2_PLACEMENT_3D ( 'NONE', #334, #180, #302 ) ;
#89 = EDGE_CURVE ( 'NONE', #163, #293, #267, .T. ) ;
#90 = AXIS2_PLACEMENT_3D ( 'NONE', #214, #82, #186 ) ;
#91 = DIRECTION ( 'NONE',  ( 0.000000000000000000, 0.000000000000000000, 1.000000000000000000 ) ) ;
#92 = DIRECTION ( 'NONE',  ( 0.000000000000000000, 0.000000000000000000, 1.000000000000000000 ) ) ;
#93 = CYLINDRICAL_SURFACE ( 'NONE', #57, 5.000000000000000888 ) ;
#94 = APPLICATION_CONTEXT ( 'configuration controlled 3d designs of mechanical parts and assemblies' ) ;
#95 = EDGE_LOOP ( 'NONE', ( #62, #213, #141, #112 ) ) ;
#96 = DIRECTION ( 'NONE',  ( 1.000000000000000000, 0.000000000000000000, 0.000000000000000000 ) ) ;
#97 = CYLINDRICAL_SURFACE ( 'NONE', #88, 5.000000000000000888 ) ;
#98 = DIRECTION ( 'NONE',  ( 0.000000000000000000, 0.000000000000000000, -1.000000000000000000 ) ) ;
#99 = APPROVAL_DATE_TIME ( #285, #101 ) ;
#100 = CIRCLE ( 'NONE', #16, 5.000000000000000888 ) ;
#101 = APPROVAL ( #105, 'UNSPECIFIED' ) ;
#102 = CARTESIAN_POINT ( 'NONE',  ( -1.614212418857619014, 0.000000000000000000, 0.000000000000000000 ) ) ;
#103 = APPROVAL_DATE_TIME ( #48, #275 ) ;
#104 = DIRECTION ( 'NONE',  ( 0.000000000000000000, 0.000000000000000000, 1.000000000000000000 ) ) ;
#105 = APPROVAL_STATUS ( 'not_yet_approved' ) ;
#106 = ADVANCED_FACE ( 'NONE', ( #195, #174 ), #15, .F. ) ;
#107 = ORIENTED_EDGE ( 'NONE', *, *, #228, .F. ) ;
#108 = CARTESIAN_POINT ( 'NONE',  ( -1.614212418857619014, 0.000000000000000000, 0.000000000000000000 ) ) ;
#109 = PRODUCT ( 'QB-CTZHWP-10-894-M', 'QB-CTZHWP-10-894-M', '', ( #40 ) ) ;
#110 = ORIENTED_EDGE ( 'NONE', *, *, #324, .T. ) ;
#111 = CARTESIAN_POINT ( 'NONE',  ( -3.000000000000000000, 6.123233995736766282E-16, -5.000000000000000000 ) ) ;
#112 = ORIENTED_EDGE ( 'NONE', *, *, #237, .T. ) ;
#113 = EDGE_CURVE ( 'NONE', #10, #39, #223, .T. ) ;
#114 = ORIENTED_EDGE ( 'NONE', *, *, #283, .T. ) ;
#115 = CARTESIAN_POINT ( 'NONE',  ( -1.614212418857619014, 6.123233995736767268E-16, -5.000000000000000888 ) ) ;
#116 = ORGANIZATION ( 'UNSPECIFIED', 'UNSPECIFIED', '' ) ;
#117 = EDGE_LOOP ( 'NONE', ( #220, #63 ) ) ;
#118 = DIRECTION ( 'NONE',  ( -0.000000000000000000, 0.000000000000000000, 1.000000000000000000 ) ) ;
#119 = EDGE_LOOP ( 'NONE', ( #34, #121 ) ) ;
#120 = CC_DESIGN_DATE_AND_TIME_ASSIGNMENT ( #239, #205, ( #155 ) ) ;
#121 = ORIENTED_EDGE ( 'NONE', *, *, #251, .F. ) ;
#122 = CARTESIAN_POINT ( 'NONE',  ( -3.000000000000000000, 5.000000000000000000, 0.000000000000000000 ) ) ;
#123 = CARTESIAN_POINT ( 'NONE',  ( -1.250000000000000222, 0.000000000000000000, 5.000000000000000888 ) ) ;
#124 = VECTOR ( 'NONE', #280, 1000.000000000000000 ) ;
#125 =( GEOMETRIC_REPRESENTATION_CONTEXT ( 3 ) GLOBAL_UNCERTAINTY_ASSIGNED_CONTEXT ( ( #233 ) ) GLOBAL_UNIT_ASSIGNED_CONTEXT ( ( #319, #2, #162 ) ) REPRESENTATION_CONTEXT ( 'NONE', 'WORKASPACE' ) );
#126 = ADVANCED_FACE ( 'NONE', ( #221 ), #93, .F. ) ;
#127 = PERSON_AND_ORGANIZATION ( #139, #116 ) ;
#128 = DIRECTION ( 'NONE',  ( -1.000000000000000000, -0.000000000000000000, -0.000000000000000000 ) ) ;
#129 = CALENDAR_DATE ( 2020, 24, 12 ) ;
#130 = CARTESIAN_POINT ( 'NONE',  ( 1.250000000000000444, 0.000000000000000000, 0.000000000000000000 ) ) ;
#131 = ADVANCED_FACE ( 'NONE', ( #243 ), #216, .F. ) ;
#132 = DIRECTION ( 'NONE',  ( 0.000000000000000000, 0.000000000000000000, -1.000000000000000000 ) ) ;
#133 = CIRCLE ( 'NONE', #265, 5.000000000000000000 ) ;
#134 = DIRECTION ( 'NONE',  ( 0.000000000000000000, 0.000000000000000000, 1.000000000000000000 ) ) ;
#135 = DIRECTION ( 'NONE',  ( 0.000000000000000000, 0.000000000000000000, 1.000000000000000000 ) ) ;
#136 = APPLICATION_PROTOCOL_DEFINITION ( 'international standard', 'config_control_design', 1994, #150 ) ;
#137 = EDGE_CURVE ( 'NONE', #316, #86, #196, .T. ) ;
#138 = DIRECTION ( 'NONE',  ( -0.000000000000000000, 0.000000000000000000, 1.000000000000000000 ) ) ;
#139 = PERSON ( 'UNSPECIFIED', 'UNSPECIFIED', 'UNSPECIFIED', ('UNSPECIFIED'), ('UNSPECIFIED'), ('UNSPECIFIED') ) ;
#140 = VECTOR ( 'NONE', #65, 1000.000000000000000 ) ;
#141 = ORIENTED_EDGE ( 'NONE', *, *, #89, .T. ) ;
#142 = DIRECTION ( 'NONE',  ( -1.000000000000000000, -0.000000000000000000, -0.000000000000000000 ) ) ;
#143 = CC_DESIGN_APPROVAL ( #101, ( #284 ) ) ;
#144 = CARTESIAN_POINT ( 'NONE',  ( 3.000000000000000000, 12.69999999999999929, 0.000000000000000000 ) ) ;
#145 = CARTESIAN_POINT ( 'NONE',  ( -1.614212418857619014, 0.000000000000000000, 0.000000000000000000 ) ) ;
#146 = CIRCLE ( 'NONE', #272, 5.000000000000000888 ) ;
#147 = CIRCLE ( 'NONE', #90, 12.69999999999999929 ) ;
#148 = FACE_OUTER_BOUND ( 'NONE', #270, .T. ) ;
#149 = CARTESIAN_POINT ( 'NONE',  ( -1.614212418857619014, 6.123233995736767268E-16, -5.000000000000000888 ) ) ;
#150 = APPLICATION_CONTEXT ( 'configuration controlled 3d designs of mechanical parts and assemblies' ) ;
#151 = CARTESIAN_POINT ( 'NONE',  ( -1.614212418857619014, 0.000000000000000000, 5.000000000000000888 ) ) ;
#152 = CLOSED_SHELL ( 'NONE', ( #333, #126, #261, #131, #231, #168, #219, #301, #106, #244 ) ) ;
#153 = PERSON_AND_ORGANIZATION ( #139, #116 ) ;
#154 = CC_DESIGN_PERSON_AND_ORGANIZATION_ASSIGNMENT ( #183, #73, ( #284 ) ) ;
#155 = PRODUCT_DEFINITION ( 'UNKNOWN', '', #284, #179 ) ;
#156 = FACE_OUTER_BOUND ( 'NONE', #12, .T. ) ;
#157 = DATE_AND_TIME ( #313, #58 ) ;
#158 = CYLINDRICAL_SURFACE ( 'NONE', #177, 12.69999999999999929 ) ;
#159 = EDGE_CURVE ( 'NONE', #163, #189, #100, .T. ) ;
#160 = SECURITY_CLASSIFICATION_LEVEL ( 'unclassified' ) ;
#161 = CYLINDRICAL_SURFACE ( 'NONE', #17, 12.69999999999999929 ) ;
#162 =( NAMED_UNIT ( * ) SI_UNIT ( $, .STERADIAN. ) SOLID_ANGLE_UNIT ( ) );
#163 = VERTEX_POINT ( 'NONE', #123 ) ;
#164 = AXIS2_PLACEMENT_3D ( 'NONE', #274, #328, #32 ) ;
#165 = ORIENTED_EDGE ( 'NONE', *, *, #251, .T. ) ;
#166 = EDGE_CURVE ( 'NONE', #300, #86, #227, .T. ) ;
#167 = ORIENTED_EDGE ( 'NONE', *, *, #228, .T. ) ;
#168 = ADVANCED_FACE ( 'NONE', ( #276 ), #97, .F. ) ;
#169 = CARTESIAN_POINT ( 'NONE',  ( 1.250000000000000444, 0.000000000000000000, 5.000000000000000000 ) ) ;
#170 = EDGE_CURVE ( 'NONE', #189, #163, #146, .T. ) ;
#171 = CARTESIAN_POINT ( 'NONE',  ( -3.000000000000000000, 1.555301434917138433E-15, -12.69999999999999929 ) ) ;
#172 = VECTOR ( 'NONE', #254, 1000.000000000000000 ) ;
#173 = CIRCLE ( 'NONE', #332, 5.000000000000000000 ) ;
#174 = FACE_BOUND ( 'NONE', #117, .T. ) ;
#175 = DIRECTION ( 'NONE',  ( -1.000000000000000000, -0.000000000000000000, -0.000000000000000000 ) ) ;
#176 = DIRECTION ( 'NONE',  ( -1.000000000000000000, -0.000000000000000000, -0.000000000000000000 ) ) ;
#177 = AXIS2_PLACEMENT_3D ( 'NONE', #108, #85, #55 ) ;
#178 = DIRECTION ( 'NONE',  ( 1.000000000000000000, 0.000000000000000000, 0.000000000000000000 ) ) ;
#179 = DESIGN_CONTEXT ( 'detailed design', #150, 'design' ) ;
#180 = DIRECTION ( 'NONE',  ( -1.000000000000000000, -0.000000000000000000, -0.000000000000000000 ) ) ;
#181 = PERSON_AND_ORGANIZATION ( #139, #116 ) ;
#182 = AXIS2_PLACEMENT_3D ( 'NONE', #232, #303, #19 ) ;
#183 = PERSON_AND_ORGANIZATION ( #139, #116 ) ;
#184 = COORDINATED_UNIVERSAL_TIME_OFFSET ( 8, 0, .AHEAD. ) ;
#185 = APPLICATION_PROTOCOL_DEFINITION ( 'international standard', 'config_control_design', 1994, #94 ) ;
#186 = DIRECTION ( 'NONE',  ( 0.000000000000000000, 0.000000000000000000, 1.000000000000000000 ) ) ;
#187 = ORIENTED_EDGE ( 'NONE', *, *, #324, .F. ) ;
#188 = LINE ( 'NONE', #262, #78 ) ;
#189 = VERTEX_POINT ( 'NONE', #279 ) ;
#190 = PLANE ( 'NONE',  #273 ) ;
#191 = AXIS2_PLACEMENT_3D ( 'NONE', #66, #61, #92 ) ;
#192 = ORIENTED_EDGE ( 'NONE', *, *, #237, .F. ) ;
#193 = CARTESIAN_POINT ( 'NONE',  ( 1.250000000000000222, 5.000000000000000000, 0.000000000000000000 ) ) ;
#194 = ORIENTED_EDGE ( 'NONE', *, *, #67, .F. ) ;
#195 = FACE_OUTER_BOUND ( 'NONE', #119, .T. ) ;
#196 = CIRCLE ( 'NONE', #182, 12.69999999999999929 ) ;
#197 = CARTESIAN_POINT ( 'NONE',  ( -1.614212418857619014, 0.000000000000000000, 0.000000000000000000 ) ) ;
#198 = AXIS2_PLACEMENT_3D ( 'NONE', #207, #242, #317 ) ;
#199 = VERTEX_POINT ( 'NONE', #45 ) ;
#200 = DIRECTION ( 'NONE',  ( 0.000000000000000000, 0.000000000000000000, 1.000000000000000000 ) ) ;
#201 = DIRECTION ( 'NONE',  ( 0.000000000000000000, 0.000000000000000000, -1.000000000000000000 ) ) ;
#202 = ADVANCED_BREP_SHAPE_REPRESENTATION ( 'QB-CTZHWP-10-894-M', ( #7, #64 ), #125 ) ;
#203 = DIRECTION ( 'NONE',  ( 0.000000000000000000, 0.000000000000000000, -1.000000000000000000 ) ) ;
#204 = APPROVAL_ROLE ( '' ) ;
#205 = DATE_TIME_ROLE ( 'creation_date' ) ;
#206 = EDGE_CURVE ( 'NONE', #199, #39, #18, .T. ) ;
#207 = CARTESIAN_POINT ( 'NONE',  ( 3.000000000000000000, 0.000000000000000000, 0.000000000000000000 ) ) ;
#208 = DATE_TIME_ROLE ( 'classification_date' ) ;
#209 = CARTESIAN_POINT ( 'NONE',  ( -1.250000000000000222, 5.000000000000000000, 0.000000000000000000 ) ) ;
#210 = SECURITY_CLASSIFICATION ( '', '', #160 ) ;
#211 = ORIENTED_EDGE ( 'NONE', *, *, #206, .T. ) ;
#212 = DIRECTION ( 'NONE',  ( -1.000000000000000000, -0.000000000000000000, -0.000000000000000000 ) ) ;
#213 = ORIENTED_EDGE ( 'NONE', *, *, #170, .T. ) ;
#214 = CARTESIAN_POINT ( 'NONE',  ( -3.000000000000000000, 0.000000000000000000, 0.000000000000000000 ) ) ;
#215 = ORIENTED_EDGE ( 'NONE', *, *, #80, .T. ) ;
#216 = PLANE ( 'NONE',  #6 ) ;
#217 = DIRECTION ( 'NONE',  ( -1.000000000000000000, -0.000000000000000000, -0.000000000000000000 ) ) ;
#218 = CIRCLE ( 'NONE', #198, 12.69999999999999929 ) ;
#219 = ADVANCED_FACE ( 'NONE', ( #71, #253 ), #20, .F. ) ;
#220 = ORIENTED_EDGE ( 'NONE', *, *, #67, .T. ) ;
#221 = FACE_OUTER_BOUND ( 'NONE', #87, .T. ) ;
#222 = DIRECTION ( 'NONE',  ( -1.000000000000000000, -0.000000000000000000, -0.000000000000000000 ) ) ;
#223 = CIRCLE ( 'NONE', #164, 5.000000000000000000 ) ;
#224 = EDGE_LOOP ( 'NONE', ( #33, #9 ) ) ;
#225 = PRODUCT_RELATED_PRODUCT_CATEGORY ( 'detail', '', ( #109 ) ) ;
#226 = DIRECTION ( 'NONE',  ( -1.000000000000000000, -0.000000000000000000, -0.000000000000000000 ) ) ;
#227 = LINE ( 'NONE', #331, #29 ) ;
#228 = EDGE_CURVE ( 'NONE', #241, #10, #46, .T. ) ;
#229 = DIRECTION ( 'NONE',  ( 1.000000000000000000, 0.000000000000000000, 0.000000000000000000 ) ) ;
#230 = CC_DESIGN_PERSON_AND_ORGANIZATION_ASSIGNMENT ( #127, #75, ( #210 ) ) ;
#231 = ADVANCED_FACE ( 'NONE', ( #21 ), #42, .F. ) ;
#232 = CARTESIAN_POINT ( 'NONE',  ( -3.000000000000000000, 0.000000000000000000, 0.000000000000000000 ) ) ;
#233 = UNCERTAINTY_MEASURE_WITH_UNIT (LENGTH_MEASURE( 1.000000000000000082E-05 ), #319, 'distance_accuracy_value', 'NONE');
#234 = SHAPE_DEFINITION_REPRESENTATION ( #83, #202 ) ;
#235 = CARTESIAN_POINT ( 'NONE',  ( 3.000000000000000000, 1.555301434917138433E-15, -12.69999999999999929 ) ) ;
#236 = AXIS2_PLACEMENT_3D ( 'NONE', #56, #54, #260 ) ;
#237 = EDGE_CURVE ( 'NONE', #293, #291, #173, .T. ) ;
#238 = DIRECTION ( 'NONE',  ( 0.000000000000000000, 0.000000000000000000, 1.000000000000000000 ) ) ;
#239 = DATE_AND_TIME ( #129, #314 ) ;
#240 = CARTESIAN_POINT ( 'NONE',  ( -3.000000000000000000, 0.000000000000000000, 12.69999999999999929 ) ) ;
#241 = VERTEX_POINT ( 'NONE', #44 ) ;
#242 = DIRECTION ( 'NONE',  ( -1.000000000000000000, -0.000000000000000000, -0.000000000000000000 ) ) ;
#243 = FACE_OUTER_BOUND ( 'NONE', #31, .T. ) ;
#244 = ADVANCED_FACE ( 'NONE', ( #148 ), #190, .F. ) ;
#245 = EDGE_LOOP ( 'NONE', ( #192, #268 ) ) ;
#246 = AXIS2_PLACEMENT_3D ( 'NONE', #287, #5, #104 ) ;
#247 = ORIENTED_EDGE ( 'NONE', *, *, #113, .F. ) ;
#248 = LINE ( 'NONE', #115, #36 ) ;
#249 = ORIENTED_EDGE ( 'NONE', *, *, #89, .F. ) ;
#250 = DIRECTION ( 'NONE',  ( -1.000000000000000000, 0.000000000000000000, -0.000000000000000000 ) ) ;
#251 = EDGE_CURVE ( 'NONE', #300, #264, #321, .T. ) ;
#252 = CARTESIAN_POINT ( 'NONE',  ( -1.250000000000000222, 0.000000000000000000, 0.000000000000000000 ) ) ;
#253 = FACE_OUTER_BOUND ( 'NONE', #224, .T. ) ;
#254 = DIRECTION ( 'NONE',  ( -1.000000000000000000, -0.000000000000000000, -0.000000000000000000 ) ) ;
#255 = AXIS2_PLACEMENT_3D ( 'NONE', #122, #229, #203 ) ;
#256 = CC_DESIGN_SECURITY_CLASSIFICATION ( #210, ( #284 ) ) ;
#257 = CALENDAR_DATE ( 2020, 24, 12 ) ;
#258 = DIRECTION ( 'NONE',  ( 0.000000000000000000, 0.000000000000000000, 1.000000000000000000 ) ) ;
#259 = COORDINATED_UNIVERSAL_TIME_OFFSET ( 8, 0, .AHEAD. ) ;
#260 = DIRECTION ( 'NONE',  ( 0.000000000000000000, 0.000000000000000000, 1.000000000000000000 ) ) ;
#261 = ADVANCED_FACE ( 'NONE', ( #156 ), #74, .F. ) ;
#262 = CARTESIAN_POINT ( 'NONE',  ( -1.614212418857619014, 0.000000000000000000, 12.69999999999999929 ) ) ;
#263 = CC_DESIGN_PERSON_AND_ORGANIZATION_ASSIGNMENT ( #286, #310, ( #155 ) ) ;
#264 = VERTEX_POINT ( 'NONE', #25 ) ;
#265 = AXIS2_PLACEMENT_3D ( 'NONE', #130, #128, #238 ) ;
#266 = ORIENTED_EDGE ( 'NONE', *, *, #70, .T. ) ;
#267 = LINE ( 'NONE', #13, #140 ) ;
#268 = ORIENTED_EDGE ( 'NONE', *, *, #70, .F. ) ;
#269 = CARTESIAN_POINT ( 'NONE',  ( 1.250000000000000444, 6.123233995736766282E-16, -5.000000000000000000 ) ) ;
#270 = EDGE_LOOP ( 'NONE', ( #81, #323 ) ) ;
#271 = ORIENTED_EDGE ( 'NONE', *, *, #159, .T. ) ;
#272 = AXIS2_PLACEMENT_3D ( 'NONE', #69, #178, #98 ) ;
#273 = AXIS2_PLACEMENT_3D ( 'NONE', #209, #50, #132 ) ;
#274 = CARTESIAN_POINT ( 'NONE',  ( 1.250000000000000444, 0.000000000000000000, 0.000000000000000000 ) ) ;
#275 = APPROVAL ( #309, 'UNSPECIFIED' ) ;
#276 = FACE_OUTER_BOUND ( 'NONE', #95, .T. ) ;
#277 = DIRECTION ( 'NONE',  ( 0.000000000000000000, 0.000000000000000000, 1.000000000000000000 ) ) ;
#278 = CC_DESIGN_APPROVAL ( #327, ( #155 ) ) ;
#279 = CARTESIAN_POINT ( 'NONE',  ( -1.250000000000000222, 6.123233995736767268E-16, -5.000000000000000888 ) ) ;
#280 = DIRECTION ( 'NONE',  ( -1.000000000000000000, -0.000000000000000000, -0.000000000000000000 ) ) ;
#281 = AXIS2_PLACEMENT_3D ( 'NONE', #144, #250, #118 ) ;
#282 = DATE_AND_TIME ( #26, #297 ) ;
#283 = EDGE_CURVE ( 'NONE', #39, #10, #133, .T. ) ;
#284 = PRODUCT_DEFINITION_FORMATION_WITH_SPECIFIED_SOURCE ( 'ANY', '', #109, .NOT_KNOWN. ) ;
#285 = DATE_AND_TIME ( #257, #22 ) ;
#286 = PERSON_AND_ORGANIZATION ( #139, #116 ) ;
#287 = CARTESIAN_POINT ( 'NONE',  ( 3.000000000000000000, 0.000000000000000000, 0.000000000000000000 ) ) ;
#288 = COORDINATED_UNIVERSAL_TIME_OFFSET ( 8, 0, .AHEAD. ) ;
#289 = CIRCLE ( 'NONE', #191, 5.000000000000001776 ) ;
#290 = DIRECTION ( 'NONE',  ( -1.000000000000000000, -0.000000000000000000, -0.000000000000000000 ) ) ;
#291 = VERTEX_POINT ( 'NONE', #111 ) ;
#292 = CC_DESIGN_APPROVAL ( #275, ( #210 ) ) ;
#293 = VERTEX_POINT ( 'NONE', #4 ) ;
#294 = DIRECTION ( 'NONE',  ( -1.000000000000000000, 0.000000000000000000, -0.000000000000000000 ) ) ;
#295 = ORIENTED_EDGE ( 'NONE', *, *, #306, .F. ) ;
#296 = EDGE_LOOP ( 'NONE', ( #322, #165, #110, #295 ) ) ;
#297 = LOCAL_TIME ( 9, 34, 34.00000000000000000, #184 ) ;
#298 = EDGE_CURVE ( 'NONE', #264, #300, #218, .T. ) ;
#299 = ORIENTED_EDGE ( 'NONE', *, *, #335, .F. ) ;
#300 = VERTEX_POINT ( 'NONE', #235 ) ;
#301 = ADVANCED_FACE ( 'NONE', ( #311 ), #161, .T. ) ;
#302 = DIRECTION ( 'NONE',  ( 0.000000000000000000, 0.000000000000000000, 1.000000000000000000 ) ) ;
#303 = DIRECTION ( 'NONE',  ( -1.000000000000000000, -0.000000000000000000, -0.000000000000000000 ) ) ;
#304 = CC_DESIGN_PERSON_AND_ORGANIZATION_ASSIGNMENT ( #3, #307, ( #284 ) ) ;
#305 = CIRCLE ( 'NONE', #312, 5.000000000000000000 ) ;
#306 = EDGE_CURVE ( 'NONE', #86, #316, #147, .T. ) ;
#307 = PERSON_AND_ORGANIZATION_ROLE ( 'creator' ) ;
#308 = APPROVAL_PERSON_ORGANIZATION ( #24, #327, #23 ) ;
#309 = APPROVAL_STATUS ( 'not_yet_approved' ) ;
#310 = PERSON_AND_ORGANIZATION_ROLE ( 'creator' ) ;
#311 = FACE_OUTER_BOUND ( 'NONE', #296, .T. ) ;
#312 = AXIS2_PLACEMENT_3D ( 'NONE', #35, #142, #91 ) ;
#313 = CALENDAR_DATE ( 2020, 24, 12 ) ;
#314 = LOCAL_TIME ( 9, 34, 34.00000000000000000, #51 ) ;
#315 = CARTESIAN_POINT ( 'NONE',  ( -1.614212418857619014, 0.000000000000000000, 0.000000000000000000 ) ) ;
#316 = VERTEX_POINT ( 'NONE', #240 ) ;
#317 = DIRECTION ( 'NONE',  ( 0.000000000000000000, 0.000000000000000000, 1.000000000000000000 ) ) ;
#318 = ORIENTED_EDGE ( 'NONE', *, *, #298, .T. ) ;
#319 =( LENGTH_UNIT ( ) NAMED_UNIT ( * ) SI_UNIT ( .MILLI., .METRE. ) );
#320 = EDGE_LOOP ( 'NONE', ( #60, #194, #167, #38 ) ) ;
#321 = CIRCLE ( 'NONE', #236, 12.69999999999999929 ) ;
#322 = ORIENTED_EDGE ( 'NONE', *, *, #166, .F. ) ;
#323 = ORIENTED_EDGE ( 'NONE', *, *, #170, .F. ) ;
#324 = EDGE_CURVE ( 'NONE', #264, #316, #188, .T. ) ;
#325 = CC_DESIGN_DATE_AND_TIME_ASSIGNMENT ( #157, #208, ( #210 ) ) ;
#326 = PERSON_AND_ORGANIZATION ( #139, #116 ) ;
#327 = APPROVAL ( #28, 'UNSPECIFIED' ) ;
#328 = DIRECTION ( 'NONE',  ( -1.000000000000000000, -0.000000000000000000, -0.000000000000000000 ) ) ;
#329 = APPROVAL_PERSON_ORGANIZATION ( #153, #101, #204 ) ;
#330 = ORIENTED_EDGE ( 'NONE', *, *, #166, .T. ) ;
#331 = CARTESIAN_POINT ( 'NONE',  ( -1.614212418857619014, 1.555301434917138433E-15, -12.69999999999999929 ) ) ;
#332 = AXIS2_PLACEMENT_3D ( 'NONE', #68, #176, #277 ) ;
#333 = ADVANCED_FACE ( 'NONE', ( #52 ), #158, .T. ) ;
#334 = CARTESIAN_POINT ( 'NONE',  ( -1.614212418857619014, 0.000000000000000000, 0.000000000000000000 ) ) ;
#335 = EDGE_CURVE ( 'NONE', #199, #241, #37, .T. ) ;
ENDSEC;
END-ISO-10303-21;
